ISO-10303-21;
HEADER;
FILE_DESCRIPTION (( 'STEP AP203' ),
    '1' );
FILE_NAME ('Q-OZHWP-R2-25.4-248-M.STEP',
    '2020-12-22T09:18:28',
    ( '' ),
    ( '' ),
    'SwSTEP 2.0',
    'SolidWorks 2020',
    '' );
FILE_SCHEMA (( 'CONFIG_CONTROL_DESIGN' ));
ENDSEC;

DATA;
#1 = CC_DESIGN_APPROVAL ( #148, ( #84 ) ) ;
#2 = APPLICATION_PROTOCOL_DEFINITION ( 'international standard', 'config_control_design', 1994, #53 ) ;
#3 = APPROVAL_STATUS ( 'not_yet_approved' ) ;
#4 = CC_DESIGN_DATE_AND_TIME_ASSIGNMENT ( #35, #168, ( #84 ) ) ;
#5 = CLOSED_SHELL ( 'NONE', ( #50, #144, #129, #13 ) ) ;
#6 = DIRECTION ( 'NONE',  ( 1.000000000000000000, 0.000000000000000000, 0.000000000000000000 ) ) ;
#7 = PERSON ( 'UNSPECIFIED', 'UNSPECIFIED', 'UNSPECIFIED', ('UNSPECIFIED'), ('UNSPECIFIED'), ('UNSPECIFIED') ) ;
#8 = DIRECTION ( 'NONE',  ( -1.000000000000000000, -0.000000000000000000, -0.000000000000000000 ) ) ;
#9 = ORIENTED_EDGE ( 'NONE', *, *, #115, .F. ) ;
#10 = DIRECTION ( 'NONE',  ( 0.000000000000000000, 0.000000000000000000, 1.000000000000000000 ) ) ;
#11 = DIRECTION ( 'NONE',  ( -1.000000000000000000, -0.000000000000000000, -0.000000000000000000 ) ) ;
#12 = LINE ( 'NONE', #134, #14 ) ;
#13 = ADVANCED_FACE ( 'NONE', ( #25 ), #95, .F. ) ;
#14 = VECTOR ( 'NONE', #165, 1000.000000000000000 ) ;
#15 = PERSON_AND_ORGANIZATION ( #7, #157 ) ;
#16 = PRODUCT ( 'Q-OZHWP-R2-25.4-248-M', 'Q-OZHWP-R2-25.4-248-M', '', ( #57 ) ) ;
#17 = FACE_OUTER_BOUND ( 'NONE', #161, .T. ) ;
#18 = APPROVAL ( #32, 'UNSPECIFIED' ) ;
#19 = SECURITY_CLASSIFICATION_LEVEL ( 'unclassified' ) ;
#20 = PERSON_AND_ORGANIZATION ( #7, #157 ) ;
#21 = EDGE_CURVE ( 'NONE', #37, #98, #111, .T. ) ;
#22 = ORIENTED_EDGE ( 'NONE', *, *, #115, .T. ) ;
#23 = ORIENTED_EDGE ( 'NONE', *, *, #55, .T. ) ;
#24 = CC_DESIGN_PERSON_AND_ORGANIZATION_ASSIGNMENT ( #138, #63, ( #56 ) ) ;
#25 = FACE_OUTER_BOUND ( 'NONE', #162, .T. ) ;
#26 = CARTESIAN_POINT ( 'NONE',  ( -3.000000000000001776, 1.555301434917138433E-15, -12.69999999999999929 ) ) ;
#27 = CARTESIAN_POINT ( 'NONE',  ( 0.000000000000000000, 0.000000000000000000, 0.000000000000000000 ) ) ;
#28 = DIRECTION ( 'NONE',  ( -0.000000000000000000, 0.000000000000000000, 1.000000000000000000 ) ) ;
#29 = ADVANCED_BREP_SHAPE_REPRESENTATION ( 'Q-OZHWP-R2-25.4-248-M', ( #75, #160 ), #70 ) ;
#30 =( LENGTH_UNIT ( ) NAMED_UNIT ( * ) SI_UNIT ( .MILLI., .METRE. ) );
#31 = DATE_AND_TIME ( #159, #164 ) ;
#32 = APPROVAL_STATUS ( 'not_yet_approved' ) ;
#33 = CALENDAR_DATE ( 2020, 22, 12 ) ;
#34 = LOCAL_TIME ( 17, 18, 28.00000000000000000, #91 ) ;
#35 = DATE_AND_TIME ( #33, #130 ) ;
#36 = VERTEX_POINT ( 'NONE', #26 ) ;
#37 = VERTEX_POINT ( 'NONE', #65 ) ;
#38 = ORIENTED_EDGE ( 'NONE', *, *, #126, .F. ) ;
#39 = PRODUCT_DEFINITION ( 'UNKNOWN', '', #56, #137 ) ;
#40 = APPLICATION_CONTEXT ( 'configuration controlled 3d designs of mechanical parts and assemblies' ) ;
#41 = CALENDAR_DATE ( 2020, 22, 12 ) ;
#42 = DIRECTION ( 'NONE',  ( -1.000000000000000000, 0.000000000000000000, -0.000000000000000000 ) ) ;
#43 = AXIS2_PLACEMENT_3D ( 'NONE', #85, #6, #67 ) ;
#44 = DIRECTION ( 'NONE',  ( 0.000000000000000000, 0.000000000000000000, 1.000000000000000000 ) ) ;
#45 = CC_DESIGN_DATE_AND_TIME_ASSIGNMENT ( #156, #158, ( #39 ) ) ;
#46 = COORDINATED_UNIVERSAL_TIME_OFFSET ( 8, 0, .AHEAD. ) ;
#47 = LOCAL_TIME ( 17, 18, 28.00000000000000000, #46 ) ;
#48 = PERSON_AND_ORGANIZATION ( #7, #157 ) ;
#49 = PERSON_AND_ORGANIZATION ( #7, #157 ) ;
#50 = ADVANCED_FACE ( 'NONE', ( #141 ), #127, .T. ) ;
#51 = AXIS2_PLACEMENT_3D ( 'NONE', #74, #152, #163 ) ;
#52 = PERSON_AND_ORGANIZATION_ROLE ( 'creator' ) ;
#53 = APPLICATION_CONTEXT ( 'configuration controlled 3d designs of mechanical parts and assemblies' ) ;
#54 = CARTESIAN_POINT ( 'NONE',  ( -3.000000000000000000, 0.000000000000000000, 12.69999999999999929 ) ) ;
#55 = EDGE_CURVE ( 'NONE', #37, #69, #169, .T. ) ;
#56 = PRODUCT_DEFINITION_FORMATION_WITH_SPECIFIED_SOURCE ( 'ANY', '', #16, .NOT_KNOWN. ) ;
#57 = MECHANICAL_CONTEXT ( 'NONE', #40, 'mechanical' ) ;
#58 =( NAMED_UNIT ( * ) SI_UNIT ( $, .STERADIAN. ) SOLID_ANGLE_UNIT ( ) );
#59 = APPROVAL_ROLE ( '' ) ;
#60 = CC_DESIGN_PERSON_AND_ORGANIZATION_ASSIGNMENT ( #48, #52, ( #56 ) ) ;
#61 = CIRCLE ( 'NONE', #51, 12.69999999999999929 ) ;
#62 = AXIS2_PLACEMENT_3D ( 'NONE', #100, #131, #150 ) ;
#63 = PERSON_AND_ORGANIZATION_ROLE ( 'design_supplier' ) ;
#64 = CC_DESIGN_APPROVAL ( #121, ( #39 ) ) ;
#65 = CARTESIAN_POINT ( 'NONE',  ( 3.000000000000001776, 0.000000000000000000, 12.69999999999999929 ) ) ;
#66 = LOCAL_TIME ( 17, 18, 28.00000000000000000, #104 ) ;
#67 = DIRECTION ( 'NONE',  ( 0.000000000000000000, 0.000000000000000000, -1.000000000000000000 ) ) ;
#68 = CARTESIAN_POINT ( 'NONE',  ( 3.000000000000001776, 0.000000000000000000, 0.000000000000000000 ) ) ;
#69 = VERTEX_POINT ( 'NONE', #108 ) ;
#70 =( GEOMETRIC_REPRESENTATION_CONTEXT ( 3 ) GLOBAL_UNCERTAINTY_ASSIGNED_CONTEXT ( ( #105 ) ) GLOBAL_UNIT_ASSIGNED_CONTEXT ( ( #30, #71, #58 ) ) REPRESENTATION_CONTEXT ( 'NONE', 'WORKASPACE' ) );
#71 =( NAMED_UNIT ( * ) PLANE_ANGLE_UNIT ( ) SI_UNIT ( $, .RADIAN. ) );
#72 = VECTOR ( 'NONE', #107, 1000.000000000000000 ) ;
#73 = CC_DESIGN_PERSON_AND_ORGANIZATION_ASSIGNMENT ( #151, #133, ( #16 ) ) ;
#74 = CARTESIAN_POINT ( 'NONE',  ( -3.000000000000001776, 0.000000000000000000, 0.000000000000000000 ) ) ;
#75 = MANIFOLD_SOLID_BREP ( 'Ðý×', #5 ) ;
#76 = AXIS2_PLACEMENT_3D ( 'NONE', #128, #8, #10 ) ;
#77 = PERSON_AND_ORGANIZATION_ROLE ( 'creator' ) ;
#78 = COORDINATED_UNIVERSAL_TIME_OFFSET ( 8, 0, .AHEAD. ) ;
#79 = APPROVAL_DATE_TIME ( #31, #18 ) ;
#80 = APPROVAL_PERSON_ORGANIZATION ( #155, #18, #59 ) ;
#81 = EDGE_CURVE ( 'NONE', #69, #36, #149, .T. ) ;
#82 = ORIENTED_EDGE ( 'NONE', *, *, #21, .F. ) ;
#83 = EDGE_LOOP ( 'NONE', ( #146, #22, #109, #140 ) ) ;
#84 = SECURITY_CLASSIFICATION ( '', '', #19 ) ;
#85 = CARTESIAN_POINT ( 'NONE',  ( -3.000000000000000888, 12.69999999999999929, 0.000000000000000000 ) ) ;
#86 = DIRECTION ( 'NONE',  ( -1.000000000000000000, -0.000000000000000000, -0.000000000000000000 ) ) ;
#87 = APPROVAL_PERSON_ORGANIZATION ( #15, #121, #113 ) ;
#88 = DIRECTION ( 'NONE',  ( 0.000000000000000000, 0.000000000000000000, 1.000000000000000000 ) ) ;
#89 = PRODUCT_RELATED_PRODUCT_CATEGORY ( 'detail', '', ( #16 ) ) ;
#90 = EDGE_CURVE ( 'NONE', #98, #37, #96, .T. ) ;
#91 = COORDINATED_UNIVERSAL_TIME_OFFSET ( 8, 0, .AHEAD. ) ;
#92 = CALENDAR_DATE ( 2020, 22, 12 ) ;
#93 = CC_DESIGN_SECURITY_CLASSIFICATION ( #84, ( #56 ) ) ;
#94 = ORIENTED_EDGE ( 'NONE', *, *, #90, .T. ) ;
#95 = PLANE ( 'NONE',  #43 ) ;
#96 = CIRCLE ( 'NONE', #99, 12.69999999999999929 ) ;
#97 = ORIENTED_EDGE ( 'NONE', *, *, #90, .F. ) ;
#98 = VERTEX_POINT ( 'NONE', #132 ) ;
#99 = AXIS2_PLACEMENT_3D ( 'NONE', #68, #173, #88 ) ;
#100 = CARTESIAN_POINT ( 'NONE',  ( -3.000000000000000000, 0.000000000000000000, 0.000000000000000000 ) ) ;
#101 = DATE_AND_TIME ( #41, #47 ) ;
#102 = DATE_AND_TIME ( #116, #34 ) ;
#103 = COORDINATED_UNIVERSAL_TIME_OFFSET ( 8, 0, .AHEAD. ) ;
#104 = COORDINATED_UNIVERSAL_TIME_OFFSET ( 8, 0, .AHEAD. ) ;
#105 = UNCERTAINTY_MEASURE_WITH_UNIT (LENGTH_MEASURE( 1.000000000000000082E-05 ), #30, 'distance_accuracy_value', 'NONE');
#106 = CC_DESIGN_PERSON_AND_ORGANIZATION_ASSIGNMENT ( #136, #117, ( #84 ) ) ;
#107 = DIRECTION ( 'NONE',  ( -1.000000000000000000, -0.000000000000000000, -0.000000000000000000 ) ) ;
#108 = CARTESIAN_POINT ( 'NONE',  ( -3.000000000000001776, 0.000000000000000000, 12.69999999999999929 ) ) ;
#109 = ORIENTED_EDGE ( 'NONE', *, *, #81, .F. ) ;
#110 = CYLINDRICAL_SURFACE ( 'NONE', #62, 12.69999999999999929 ) ;
#111 = CIRCLE ( 'NONE', #139, 12.69999999999999929 ) ;
#112 = APPLICATION_PROTOCOL_DEFINITION ( 'international standard', 'config_control_design', 1994, #40 ) ;
#113 = APPROVAL_ROLE ( '' ) ;
#114 = APPROVAL_ROLE ( '' ) ;
#115 = EDGE_CURVE ( 'NONE', #98, #36, #12, .T. ) ;
#116 = CALENDAR_DATE ( 2020, 22, 12 ) ;
#117 = PERSON_AND_ORGANIZATION_ROLE ( 'classification_officer' ) ;
#118 = DIRECTION ( 'NONE',  ( 0.000000000000000000, 0.000000000000000000, 1.000000000000000000 ) ) ;
#119 = CARTESIAN_POINT ( 'NONE',  ( -3.000000000000000000, 0.000000000000000000, 0.000000000000000000 ) ) ;
#120 = DIRECTION ( 'NONE',  ( 0.000000000000000000, 0.000000000000000000, 1.000000000000000000 ) ) ;
#121 = APPROVAL ( #3, 'UNSPECIFIED' ) ;
#122 = AXIS2_PLACEMENT_3D ( 'NONE', #119, #11, #118 ) ;
#123 = ORIENTED_EDGE ( 'NONE', *, *, #126, .T. ) ;
#124 = CARTESIAN_POINT ( 'NONE',  ( 3.000000000000000888, 12.69999999999999929, 0.000000000000000000 ) ) ;
#125 = APPROVAL_DATE_TIME ( #102, #148 ) ;
#126 = EDGE_CURVE ( 'NONE', #36, #69, #61, .T. ) ;
#127 = CYLINDRICAL_SURFACE ( 'NONE', #122, 12.69999999999999929 ) ;
#128 = CARTESIAN_POINT ( 'NONE',  ( -3.000000000000001776, 0.000000000000000000, 0.000000000000000000 ) ) ;
#129 = ADVANCED_FACE ( 'NONE', ( #17 ), #153, .F. ) ;
#130 = LOCAL_TIME ( 17, 18, 28.00000000000000000, #103 ) ;
#131 = DIRECTION ( 'NONE',  ( -1.000000000000000000, -0.000000000000000000, -0.000000000000000000 ) ) ;
#132 = CARTESIAN_POINT ( 'NONE',  ( 3.000000000000001776, 1.555301434917138433E-15, -12.69999999999999929 ) ) ;
#133 = PERSON_AND_ORGANIZATION_ROLE ( 'design_owner' ) ;
#134 = CARTESIAN_POINT ( 'NONE',  ( -3.000000000000000000, 1.555301434917138433E-15, -12.69999999999999929 ) ) ;
#135 = SHAPE_DEFINITION_REPRESENTATION ( #154, #29 ) ;
#136 = PERSON_AND_ORGANIZATION ( #7, #157 ) ;
#137 = DESIGN_CONTEXT ( 'detailed design', #53, 'design' ) ;
#138 = PERSON_AND_ORGANIZATION ( #7, #157 ) ;
#139 = AXIS2_PLACEMENT_3D ( 'NONE', #172, #86, #120 ) ;
#140 = ORIENTED_EDGE ( 'NONE', *, *, #55, .F. ) ;
#141 = FACE_OUTER_BOUND ( 'NONE', #83, .T. ) ;
#142 = ORIENTED_EDGE ( 'NONE', *, *, #81, .T. ) ;
#143 = CC_DESIGN_PERSON_AND_ORGANIZATION_ASSIGNMENT ( #49, #77, ( #39 ) ) ;
#144 = ADVANCED_FACE ( 'NONE', ( #175 ), #110, .T. ) ;
#145 = EDGE_LOOP ( 'NONE', ( #9, #94, #23, #38 ) ) ;
#146 = ORIENTED_EDGE ( 'NONE', *, *, #21, .T. ) ;
#147 = APPROVAL_DATE_TIME ( #101, #121 ) ;
#148 = APPROVAL ( #167, 'UNSPECIFIED' ) ;
#149 = CIRCLE ( 'NONE', #76, 12.69999999999999929 ) ;
#150 = DIRECTION ( 'NONE',  ( 0.000000000000000000, 0.000000000000000000, 1.000000000000000000 ) ) ;
#151 = PERSON_AND_ORGANIZATION ( #7, #157 ) ;
#152 = DIRECTION ( 'NONE',  ( -1.000000000000000000, -0.000000000000000000, -0.000000000000000000 ) ) ;
#153 = PLANE ( 'NONE',  #171 ) ;
#154 = PRODUCT_DEFINITION_SHAPE ( 'NONE', 'NONE',  #39 ) ;
#155 = PERSON_AND_ORGANIZATION ( #7, #157 ) ;
#156 = DATE_AND_TIME ( #92, #66 ) ;
#157 = ORGANIZATION ( 'UNSPECIFIED', 'UNSPECIFIED', '' ) ;
#158 = DATE_TIME_ROLE ( 'creation_date' ) ;
#159 = CALENDAR_DATE ( 2020, 22, 12 ) ;
#160 = AXIS2_PLACEMENT_3D ( 'NONE', #27, #44, #166 ) ;
#161 = EDGE_LOOP ( 'NONE', ( #82, #97 ) ) ;
#162 = EDGE_LOOP ( 'NONE', ( #142, #123 ) ) ;
#163 = DIRECTION ( 'NONE',  ( 0.000000000000000000, 0.000000000000000000, 1.000000000000000000 ) ) ;
#164 = LOCAL_TIME ( 17, 18, 28.00000000000000000, #78 ) ;
#165 = DIRECTION ( 'NONE',  ( -1.000000000000000000, -0.000000000000000000, -0.000000000000000000 ) ) ;
#166 = DIRECTION ( 'NONE',  ( 1.000000000000000000, 0.000000000000000000, 0.000000000000000000 ) ) ;
#167 = APPROVAL_STATUS ( 'not_yet_approved' ) ;
#168 = DATE_TIME_ROLE ( 'classification_date' ) ;
#169 = LINE ( 'NONE', #54, #72 ) ;
#170 = APPROVAL_PERSON_ORGANIZATION ( #20, #148, #114 ) ;
#171 = AXIS2_PLACEMENT_3D ( 'NONE', #124, #42, #28 ) ;
#172 = CARTESIAN_POINT ( 'NONE',  ( 3.000000000000001776, 0.000000000000000000, 0.000000000000000000 ) ) ;
#173 = DIRECTION ( 'NONE',  ( -1.000000000000000000, -0.000000000000000000, -0.000000000000000000 ) ) ;
#174 = CC_DESIGN_APPROVAL ( #18, ( #56 ) ) ;
#175 = FACE_OUTER_BOUND ( 'NONE', #145, .T. ) ;
ENDSEC;
END-ISO-10303-21;
